ISO-10303-21;
HEADER;
/* Generated by software containing ST-Developer
 * from STEP Tools, Inc. (www.steptools.com) 
 */

FILE_DESCRIPTION(
/* description */ ('Kolbenstange'),
/* implementation_level */ '2;1');

FILE_NAME(
/* name */ 
'O:\\Gasfedershop\\CAD\\CAD GF-Shop Stahl+VA\\Gasfedern_stp\\Gasfedern
_stp\\Gasdruckfeder 10-23 Hub 50.stp',
/* time_stamp */ '2018-11-13T14:02:08+01:00',
/* author */ ('dlamberti'),
/* organization */ ('Hahn-Gasfedern GmbH'),
/* preprocessor_version */ 'ST-DEVELOPER v16.1',
/* originating_system */ 'Autodesk Inventor 2016',
/* authorisation */ '');

FILE_SCHEMA (('AUTOMOTIVE_DESIGN { 1 0 10303 214 3 1 1 }'));
ENDSEC;

DATA;
#10=MECHANICAL_DESIGN_GEOMETRIC_PRESENTATION_REPRESENTATION('',(#41,#42,
#43,#44,#45,#46,#47,#48,#49,#50,#51,#52),#446);
#11=ITEM_DEFINED_TRANSFORMATION($,$,#239,#280);
#12=ITEM_DEFINED_TRANSFORMATION($,$,#245,#281);
#13=ITEM_DEFINED_TRANSFORMATION($,$,#253,#282);
#14=ITEM_DEFINED_TRANSFORMATION($,$,#271,#283);
#15=(
REPRESENTATION_RELATIONSHIP($,$,#467,#471)
REPRESENTATION_RELATIONSHIP_WITH_TRANSFORMATION(#11)
SHAPE_REPRESENTATION_RELATIONSHIP()
);
#16=(
REPRESENTATION_RELATIONSHIP($,$,#468,#471)
REPRESENTATION_RELATIONSHIP_WITH_TRANSFORMATION(#12)
SHAPE_REPRESENTATION_RELATIONSHIP()
);
#17=(
REPRESENTATION_RELATIONSHIP($,$,#469,#471)
REPRESENTATION_RELATIONSHIP_WITH_TRANSFORMATION(#13)
SHAPE_REPRESENTATION_RELATIONSHIP()
);
#18=(
REPRESENTATION_RELATIONSHIP($,$,#470,#471)
REPRESENTATION_RELATIONSHIP_WITH_TRANSFORMATION(#14)
SHAPE_REPRESENTATION_RELATIONSHIP()
);
#19=CONTEXT_DEPENDENT_SHAPE_REPRESENTATION(#15,#463);
#20=CONTEXT_DEPENDENT_SHAPE_REPRESENTATION(#16,#464);
#21=CONTEXT_DEPENDENT_SHAPE_REPRESENTATION(#17,#465);
#22=CONTEXT_DEPENDENT_SHAPE_REPRESENTATION(#18,#466);
#23=NEXT_ASSEMBLY_USAGE_OCCURRENCE('ENG-001076:1','ENG-001076:1',
'ENG-001076:1',#477,#473,'ENG-001076:1');
#24=NEXT_ASSEMBLY_USAGE_OCCURRENCE('Gew-04:1','Gew-04:1','Gew-04:1',#477,
#474,'Gew-04:1');
#25=NEXT_ASSEMBLY_USAGE_OCCURRENCE('ENG-001529:1','ENG-001529:1',
'ENG-001529:1',#477,#475,'ENG-001529:1');
#26=NEXT_ASSEMBLY_USAGE_OCCURRENCE('GEW_-S-000006:2','GEW_-S-000006:2',
'GEW_-S-000006:2',#477,#476,'GEW_-S-000006:2');
#27=TOROIDAL_SURFACE('',#254,6.01627453663427,5.50311219912717);
#28=TOROIDAL_SURFACE('',#259,5.99788365385916,5.50311219912717);
#29=CONICAL_SURFACE('',#246,3.6,44.9999999999999);
#30=CONICAL_SURFACE('',#261,8.80097266638962,44.9999999999745);
#31=CONICAL_SURFACE('',#270,8.80097266640299,44.9999999999958);
#32=CONICAL_SURFACE('',#272,3.6,45.);
#33=SHAPE_REPRESENTATION_RELATIONSHIP('SRR','None',#467,#37);
#34=SHAPE_REPRESENTATION_RELATIONSHIP('SRR','None',#468,#38);
#35=SHAPE_REPRESENTATION_RELATIONSHIP('SRR','None',#469,#39);
#36=SHAPE_REPRESENTATION_RELATIONSHIP('SRR','None',#470,#40);
#37=ADVANCED_BREP_SHAPE_REPRESENTATION('',(#53),#441);
#38=ADVANCED_BREP_SHAPE_REPRESENTATION('',(#54),#442);
#39=ADVANCED_BREP_SHAPE_REPRESENTATION('',(#55),#443);
#40=ADVANCED_BREP_SHAPE_REPRESENTATION('',(#56),#444);
#41=STYLED_ITEM('',(#497),#53);
#42=STYLED_ITEM('',(#497),#218);
#43=STYLED_ITEM('',(#497),#219);
#44=STYLED_ITEM('',(#497),#220);
#45=STYLED_ITEM('',(#497),#221);
#46=STYLED_ITEM('',(#497),#54);
#47=STYLED_ITEM('',(#497),#55);
#48=STYLED_ITEM('',(#497),#231);
#49=STYLED_ITEM('',(#497),#232);
#50=STYLED_ITEM('',(#497),#233);
#51=STYLED_ITEM('',(#497),#234);
#52=STYLED_ITEM('',(#497),#56);
#53=MANIFOLD_SOLID_BREP('Volumenk\X\F6rper1',#235);
#54=MANIFOLD_SOLID_BREP('Volumenk\X\F6rper1',#236);
#55=MANIFOLD_SOLID_BREP('Volumenk\X\F6rper1',#237);
#56=MANIFOLD_SOLID_BREP('Volumenk\X\F6rper1',#238);
#57=FACE_BOUND('',#98,.T.);
#58=FACE_BOUND('',#100,.T.);
#59=FACE_BOUND('',#102,.T.);
#60=FACE_BOUND('',#106,.T.);
#61=FACE_BOUND('',#108,.T.);
#62=FACE_BOUND('',#110,.T.);
#63=FACE_BOUND('',#112,.T.);
#64=FACE_BOUND('',#114,.T.);
#65=FACE_BOUND('',#118,.T.);
#66=FACE_BOUND('',#120,.T.);
#67=FACE_BOUND('',#122,.T.);
#68=FACE_BOUND('',#124,.T.);
#69=CYLINDRICAL_SURFACE('',#244,4.99999999999999);
#70=CYLINDRICAL_SURFACE('',#249,4.);
#71=CYLINDRICAL_SURFACE('',#257,11.4999999999978);
#72=CYLINDRICAL_SURFACE('',#263,8.99999999998659);
#73=CYLINDRICAL_SURFACE('',#268,9.00000000000002);
#74=CYLINDRICAL_SURFACE('',#275,4.);
#75=FACE_OUTER_BOUND('',#95,.T.);
#76=FACE_OUTER_BOUND('',#96,.T.);
#77=FACE_OUTER_BOUND('',#97,.T.);
#78=FACE_OUTER_BOUND('',#99,.T.);
#79=FACE_OUTER_BOUND('',#101,.T.);
#80=FACE_OUTER_BOUND('',#103,.T.);
#81=FACE_OUTER_BOUND('',#104,.T.);
#82=FACE_OUTER_BOUND('',#105,.T.);
#83=FACE_OUTER_BOUND('',#107,.T.);
#84=FACE_OUTER_BOUND('',#109,.T.);
#85=FACE_OUTER_BOUND('',#111,.T.);
#86=FACE_OUTER_BOUND('',#113,.T.);
#87=FACE_OUTER_BOUND('',#115,.T.);
#88=FACE_OUTER_BOUND('',#116,.T.);
#89=FACE_OUTER_BOUND('',#117,.T.);
#90=FACE_OUTER_BOUND('',#119,.T.);
#91=FACE_OUTER_BOUND('',#121,.T.);
#92=FACE_OUTER_BOUND('',#123,.T.);
#93=FACE_OUTER_BOUND('',#125,.T.);
#94=FACE_OUTER_BOUND('',#126,.T.);
#95=EDGE_LOOP('',(#175));
#96=EDGE_LOOP('',(#176));
#97=EDGE_LOOP('',(#177));
#98=EDGE_LOOP('',(#178));
#99=EDGE_LOOP('',(#179));
#100=EDGE_LOOP('',(#180));
#101=EDGE_LOOP('',(#181));
#102=EDGE_LOOP('',(#182));
#103=EDGE_LOOP('',(#183));
#104=EDGE_LOOP('',(#184));
#105=EDGE_LOOP('',(#185));
#106=EDGE_LOOP('',(#186));
#107=EDGE_LOOP('',(#187));
#108=EDGE_LOOP('',(#188));
#109=EDGE_LOOP('',(#189));
#110=EDGE_LOOP('',(#190));
#111=EDGE_LOOP('',(#191));
#112=EDGE_LOOP('',(#192));
#113=EDGE_LOOP('',(#193));
#114=EDGE_LOOP('',(#194));
#115=EDGE_LOOP('',(#195));
#116=EDGE_LOOP('',(#196));
#117=EDGE_LOOP('',(#197));
#118=EDGE_LOOP('',(#198));
#119=EDGE_LOOP('',(#199));
#120=EDGE_LOOP('',(#200));
#121=EDGE_LOOP('',(#201));
#122=EDGE_LOOP('',(#202));
#123=EDGE_LOOP('',(#203));
#124=EDGE_LOOP('',(#204));
#125=EDGE_LOOP('',(#205));
#126=EDGE_LOOP('',(#206));
#127=CIRCLE('',#241,5.);
#128=CIRCLE('',#243,4.99999999999999);
#129=CIRCLE('',#247,4.);
#130=CIRCLE('',#248,3.2);
#131=CIRCLE('',#250,4.);
#132=CIRCLE('',#255,11.4999999999978);
#133=CIRCLE('',#256,8.60194533280596);
#134=CIRCLE('',#258,11.4999999999978);
#135=CIRCLE('',#260,8.60194533279265);
#136=CIRCLE('',#262,8.99999999998659);
#137=CIRCLE('',#264,8.99999999998659);
#138=CIRCLE('',#267,9.00000000000002);
#139=CIRCLE('',#269,9.00000000000002);
#140=CIRCLE('',#273,4.);
#141=CIRCLE('',#274,3.2);
#142=CIRCLE('',#276,4.);
#143=VERTEX_POINT('',#376);
#144=VERTEX_POINT('',#379);
#145=VERTEX_POINT('',#384);
#146=VERTEX_POINT('',#386);
#147=VERTEX_POINT('',#389);
#148=VERTEX_POINT('',#395);
#149=VERTEX_POINT('',#397);
#150=VERTEX_POINT('',#400);
#151=VERTEX_POINT('',#403);
#152=VERTEX_POINT('',#406);
#153=VERTEX_POINT('',#409);
#154=VERTEX_POINT('',#413);
#155=VERTEX_POINT('',#416);
#156=VERTEX_POINT('',#421);
#157=VERTEX_POINT('',#423);
#158=VERTEX_POINT('',#426);
#159=EDGE_CURVE('',#143,#143,#127,.T.);
#160=EDGE_CURVE('',#144,#144,#128,.T.);
#161=EDGE_CURVE('',#145,#145,#129,.T.);
#162=EDGE_CURVE('',#146,#146,#130,.T.);
#163=EDGE_CURVE('',#147,#147,#131,.T.);
#164=EDGE_CURVE('',#148,#148,#132,.T.);
#165=EDGE_CURVE('',#149,#149,#133,.T.);
#166=EDGE_CURVE('',#150,#150,#134,.T.);
#167=EDGE_CURVE('',#151,#151,#135,.T.);
#168=EDGE_CURVE('',#152,#152,#136,.T.);
#169=EDGE_CURVE('',#153,#153,#137,.T.);
#170=EDGE_CURVE('',#154,#154,#138,.T.);
#171=EDGE_CURVE('',#155,#155,#139,.T.);
#172=EDGE_CURVE('',#156,#156,#140,.T.);
#173=EDGE_CURVE('',#157,#157,#141,.T.);
#174=EDGE_CURVE('',#158,#158,#142,.T.);
#175=ORIENTED_EDGE('',*,*,#159,.T.);
#176=ORIENTED_EDGE('',*,*,#160,.F.);
#177=ORIENTED_EDGE('',*,*,#159,.F.);
#178=ORIENTED_EDGE('',*,*,#160,.T.);
#179=ORIENTED_EDGE('',*,*,#161,.T.);
#180=ORIENTED_EDGE('',*,*,#162,.T.);
#181=ORIENTED_EDGE('',*,*,#163,.T.);
#182=ORIENTED_EDGE('',*,*,#161,.F.);
#183=ORIENTED_EDGE('',*,*,#162,.F.);
#184=ORIENTED_EDGE('',*,*,#163,.F.);
#185=ORIENTED_EDGE('',*,*,#164,.F.);
#186=ORIENTED_EDGE('',*,*,#165,.T.);
#187=ORIENTED_EDGE('',*,*,#166,.F.);
#188=ORIENTED_EDGE('',*,*,#164,.T.);
#189=ORIENTED_EDGE('',*,*,#167,.F.);
#190=ORIENTED_EDGE('',*,*,#166,.T.);
#191=ORIENTED_EDGE('',*,*,#168,.F.);
#192=ORIENTED_EDGE('',*,*,#167,.T.);
#193=ORIENTED_EDGE('',*,*,#169,.F.);
#194=ORIENTED_EDGE('',*,*,#168,.T.);
#195=ORIENTED_EDGE('',*,*,#169,.T.);
#196=ORIENTED_EDGE('',*,*,#170,.F.);
#197=ORIENTED_EDGE('',*,*,#171,.F.);
#198=ORIENTED_EDGE('',*,*,#170,.T.);
#199=ORIENTED_EDGE('',*,*,#165,.F.);
#200=ORIENTED_EDGE('',*,*,#171,.T.);
#201=ORIENTED_EDGE('',*,*,#172,.T.);
#202=ORIENTED_EDGE('',*,*,#173,.T.);
#203=ORIENTED_EDGE('',*,*,#174,.T.);
#204=ORIENTED_EDGE('',*,*,#172,.F.);
#205=ORIENTED_EDGE('',*,*,#173,.F.);
#206=ORIENTED_EDGE('',*,*,#174,.F.);
#207=PLANE('',#240);
#208=PLANE('',#242);
#209=PLANE('',#251);
#210=PLANE('',#252);
#211=PLANE('',#265);
#212=PLANE('',#266);
#213=PLANE('',#277);
#214=PLANE('',#278);
#215=ADVANCED_FACE('',(#75),#207,.T.);
#216=ADVANCED_FACE('',(#76),#208,.T.);
#217=ADVANCED_FACE('',(#77,#57),#69,.T.);
#218=ADVANCED_FACE('',(#78,#58),#29,.T.);
#219=ADVANCED_FACE('',(#79,#59),#70,.T.);
#220=ADVANCED_FACE('',(#80),#209,.T.);
#221=ADVANCED_FACE('',(#81),#210,.T.);
#222=ADVANCED_FACE('',(#82,#60),#27,.T.);
#223=ADVANCED_FACE('',(#83,#61),#71,.T.);
#224=ADVANCED_FACE('',(#84,#62),#28,.T.);
#225=ADVANCED_FACE('',(#85,#63),#30,.T.);
#226=ADVANCED_FACE('',(#86,#64),#72,.T.);
#227=ADVANCED_FACE('',(#87),#211,.T.);
#228=ADVANCED_FACE('',(#88),#212,.T.);
#229=ADVANCED_FACE('',(#89,#65),#73,.T.);
#230=ADVANCED_FACE('',(#90,#66),#31,.T.);
#231=ADVANCED_FACE('',(#91,#67),#32,.T.);
#232=ADVANCED_FACE('',(#92,#68),#74,.T.);
#233=ADVANCED_FACE('',(#93),#213,.T.);
#234=ADVANCED_FACE('',(#94),#214,.T.);
#235=CLOSED_SHELL('',(#215,#216,#217));
#236=CLOSED_SHELL('',(#218,#219,#220,#221));
#237=CLOSED_SHELL('',(#222,#223,#224,#225,#226,#227,#228,#229,#230));
#238=CLOSED_SHELL('',(#231,#232,#233,#234));
#239=AXIS2_PLACEMENT_3D('placement',#374,#284,#285);
#240=AXIS2_PLACEMENT_3D('',#375,#286,#287);
#241=AXIS2_PLACEMENT_3D('',#377,#288,#289);
#242=AXIS2_PLACEMENT_3D('',#378,#290,#291);
#243=AXIS2_PLACEMENT_3D('',#380,#292,#293);
#244=AXIS2_PLACEMENT_3D('',#381,#294,#295);
#245=AXIS2_PLACEMENT_3D('placement',#382,#296,#297);
#246=AXIS2_PLACEMENT_3D('',#383,#298,#299);
#247=AXIS2_PLACEMENT_3D('',#385,#300,#301);
#248=AXIS2_PLACEMENT_3D('',#387,#302,#303);
#249=AXIS2_PLACEMENT_3D('',#388,#304,#305);
#250=AXIS2_PLACEMENT_3D('',#390,#306,#307);
#251=AXIS2_PLACEMENT_3D('',#391,#308,#309);
#252=AXIS2_PLACEMENT_3D('',#392,#310,#311);
#253=AXIS2_PLACEMENT_3D('placement',#393,#312,#313);
#254=AXIS2_PLACEMENT_3D('',#394,#314,#315);
#255=AXIS2_PLACEMENT_3D('',#396,#316,#317);
#256=AXIS2_PLACEMENT_3D('',#398,#318,#319);
#257=AXIS2_PLACEMENT_3D('',#399,#320,#321);
#258=AXIS2_PLACEMENT_3D('',#401,#322,#323);
#259=AXIS2_PLACEMENT_3D('',#402,#324,#325);
#260=AXIS2_PLACEMENT_3D('',#404,#326,#327);
#261=AXIS2_PLACEMENT_3D('',#405,#328,#329);
#262=AXIS2_PLACEMENT_3D('',#407,#330,#331);
#263=AXIS2_PLACEMENT_3D('',#408,#332,#333);
#264=AXIS2_PLACEMENT_3D('',#410,#334,#335);
#265=AXIS2_PLACEMENT_3D('',#411,#336,#337);
#266=AXIS2_PLACEMENT_3D('',#412,#338,#339);
#267=AXIS2_PLACEMENT_3D('',#414,#340,#341);
#268=AXIS2_PLACEMENT_3D('',#415,#342,#343);
#269=AXIS2_PLACEMENT_3D('',#417,#344,#345);
#270=AXIS2_PLACEMENT_3D('',#418,#346,#347);
#271=AXIS2_PLACEMENT_3D('placement',#419,#348,#349);
#272=AXIS2_PLACEMENT_3D('',#420,#350,#351);
#273=AXIS2_PLACEMENT_3D('',#422,#352,#353);
#274=AXIS2_PLACEMENT_3D('',#424,#354,#355);
#275=AXIS2_PLACEMENT_3D('',#425,#356,#357);
#276=AXIS2_PLACEMENT_3D('',#427,#358,#359);
#277=AXIS2_PLACEMENT_3D('',#428,#360,#361);
#278=AXIS2_PLACEMENT_3D('',#429,#362,#363);
#279=AXIS2_PLACEMENT_3D('placement',#430,#364,#365);
#280=AXIS2_PLACEMENT_3D('',#431,#366,#367);
#281=AXIS2_PLACEMENT_3D('',#432,#368,#369);
#282=AXIS2_PLACEMENT_3D('',#433,#370,#371);
#283=AXIS2_PLACEMENT_3D('',#434,#372,#373);
#284=DIRECTION('axis',(0.,0.,1.));
#285=DIRECTION('refdir',(1.,0.,0.));
#286=DIRECTION('center_axis',(1.,-1.42793958151146E-17,0.));
#287=DIRECTION('ref_axis',(0.,0.,-1.));
#288=DIRECTION('center_axis',(1.,-1.42793958151146E-17,0.));
#289=DIRECTION('ref_axis',(0.,1.,0.));
#290=DIRECTION('center_axis',(-1.,1.42793958151146E-17,0.));
#291=DIRECTION('ref_axis',(0.,0.,1.));
#292=DIRECTION('center_axis',(1.,-1.42793958151146E-17,0.));
#293=DIRECTION('ref_axis',(0.,1.,0.));
#294=DIRECTION('center_axis',(1.,-1.42793958151146E-17,0.));
#295=DIRECTION('ref_axis',(0.,1.,0.));
#296=DIRECTION('axis',(0.,0.,1.));
#297=DIRECTION('refdir',(1.,0.,0.));
#298=DIRECTION('center_axis',(-1.,-2.66800423566524E-16,0.));
#299=DIRECTION('ref_axis',(2.66800423566524E-16,-1.,0.));
#300=DIRECTION('center_axis',(1.,2.66800423566524E-16,0.));
#301=DIRECTION('ref_axis',(2.66800423566524E-16,-1.,0.));
#302=DIRECTION('center_axis',(-1.,-2.66800423566524E-16,0.));
#303=DIRECTION('ref_axis',(2.66800423566524E-16,-1.,0.));
#304=DIRECTION('center_axis',(1.,2.66800423566524E-16,0.));
#305=DIRECTION('ref_axis',(-2.66800423566524E-16,1.,0.));
#306=DIRECTION('center_axis',(1.,2.66800423566524E-16,0.));
#307=DIRECTION('ref_axis',(-2.66800423566524E-16,1.,0.));
#308=DIRECTION('center_axis',(1.,2.66800423566524E-16,0.));
#309=DIRECTION('ref_axis',(0.,0.,-1.));
#310=DIRECTION('center_axis',(-1.,-2.66800423566524E-16,0.));
#311=DIRECTION('ref_axis',(0.,0.,1.));
#312=DIRECTION('axis',(0.,0.,1.));
#313=DIRECTION('refdir',(1.,0.,0.));
#314=DIRECTION('center_axis',(1.,1.2636776406056E-16,0.));
#315=DIRECTION('ref_axis',(0.,0.,-1.));
#316=DIRECTION('center_axis',(1.,1.2636776406056E-16,0.));
#317=DIRECTION('ref_axis',(0.,1.,0.));
#318=DIRECTION('center_axis',(1.,1.2636776406056E-16,0.));
#319=DIRECTION('ref_axis',(0.,1.,0.));
#320=DIRECTION('center_axis',(1.,1.2636776406056E-16,0.));
#321=DIRECTION('ref_axis',(0.,1.,0.));
#322=DIRECTION('center_axis',(1.,1.2636776406056E-16,0.));
#323=DIRECTION('ref_axis',(0.,1.,0.));
#324=DIRECTION('center_axis',(1.,1.2636776406056E-16,0.));
#325=DIRECTION('ref_axis',(0.,0.,-1.));
#326=DIRECTION('center_axis',(1.,1.2636776406056E-16,0.));
#327=DIRECTION('ref_axis',(0.,1.,0.));
#328=DIRECTION('center_axis',(1.,1.2636776406056E-16,0.));
#329=DIRECTION('ref_axis',(0.,1.,0.));
#330=DIRECTION('center_axis',(1.,1.2636776406056E-16,0.));
#331=DIRECTION('ref_axis',(0.,1.,0.));
#332=DIRECTION('center_axis',(1.,1.2636776406056E-16,0.));
#333=DIRECTION('ref_axis',(0.,1.,0.));
#334=DIRECTION('center_axis',(1.,1.2636776406056E-16,0.));
#335=DIRECTION('ref_axis',(0.,1.,0.));
#336=DIRECTION('center_axis',(1.,1.2636776406056E-16,0.));
#337=DIRECTION('ref_axis',(0.,0.,-1.));
#338=DIRECTION('center_axis',(-1.,-1.2636776406056E-16,0.));
#339=DIRECTION('ref_axis',(0.,0.,1.));
#340=DIRECTION('center_axis',(1.,1.2636776406056E-16,0.));
#341=DIRECTION('ref_axis',(0.,1.,0.));
#342=DIRECTION('center_axis',(1.,1.2636776406056E-16,0.));
#343=DIRECTION('ref_axis',(0.,1.,0.));
#344=DIRECTION('center_axis',(1.,1.2636776406056E-16,0.));
#345=DIRECTION('ref_axis',(0.,1.,0.));
#346=DIRECTION('center_axis',(-1.,-1.2636776406056E-16,0.));
#347=DIRECTION('ref_axis',(0.,1.,0.));
#348=DIRECTION('axis',(0.,0.,1.));
#349=DIRECTION('refdir',(1.,0.,0.));
#350=DIRECTION('center_axis',(-1.,-1.9237869265143E-16,0.));
#351=DIRECTION('ref_axis',(1.9237869265143E-16,-1.,0.));
#352=DIRECTION('center_axis',(1.,1.9237869265143E-16,0.));
#353=DIRECTION('ref_axis',(1.9237869265143E-16,-1.,0.));
#354=DIRECTION('center_axis',(-1.,-1.9237869265143E-16,0.));
#355=DIRECTION('ref_axis',(1.9237869265143E-16,-1.,0.));
#356=DIRECTION('center_axis',(1.,1.9237869265143E-16,0.));
#357=DIRECTION('ref_axis',(-1.9237869265143E-16,1.,0.));
#358=DIRECTION('center_axis',(1.,1.9237869265143E-16,0.));
#359=DIRECTION('ref_axis',(-1.9237869265143E-16,1.,0.));
#360=DIRECTION('center_axis',(1.,1.9237869265143E-16,0.));
#361=DIRECTION('ref_axis',(0.,0.,-1.));
#362=DIRECTION('center_axis',(-1.,-1.9237869265143E-16,0.));
#363=DIRECTION('ref_axis',(0.,0.,1.));
#364=DIRECTION('axis',(0.,0.,1.));
#365=DIRECTION('refdir',(1.,0.,0.));
#366=DIRECTION('',(0.,0.,1.));
#367=DIRECTION('',(1.,0.,0.));
#368=DIRECTION('',(0.,0.,-1.));
#369=DIRECTION('',(-1.,2.85587916302291E-17,0.));
#370=DIRECTION('',(0.,0.,1.));
#371=DIRECTION('',(1.,-1.84889274661175E-32,0.));
#372=DIRECTION('',(0.,0.,1.));
#373=DIRECTION('',(1.,0.,0.));
#374=CARTESIAN_POINT('',(0.,0.,0.));
#375=CARTESIAN_POINT('Origin',(63.5000000000002,2.5,0.));
#376=CARTESIAN_POINT('',(63.5000000000002,5.,0.));
#377=CARTESIAN_POINT('Origin',(63.5000000000002,1.50647625849458E-15,0.));
#378=CARTESIAN_POINT('Origin',(13.5000000000001,2.5,0.));
#379=CARTESIAN_POINT('',(13.5000000000001,4.99999999999999,0.));
#380=CARTESIAN_POINT('Origin',(13.5000000000001,2.22044604925031E-15,0.));
#381=CARTESIAN_POINT('Origin',(38.5000000000001,1.86346115387245E-15,0.));
#382=CARTESIAN_POINT('',(0.,0.,0.));
#383=CARTESIAN_POINT('Origin',(9.6,2.56128406623863E-15,0.));
#384=CARTESIAN_POINT('',(9.2,4.,4.89858719658941E-16));
#385=CARTESIAN_POINT('Origin',(9.2,2.45456389681202E-15,0.));
#386=CARTESIAN_POINT('',(10.,3.2,-3.91886975727153E-16));
#387=CARTESIAN_POINT('Origin',(10.,2.66800423566524E-15,0.));
#388=CARTESIAN_POINT('Origin',(5.,1.33400211783262E-15,0.));
#389=CARTESIAN_POINT('',(0.,4.,0.));
#390=CARTESIAN_POINT('Origin',(1.11022302462516E-15,4.93038065763132E-31,
0.));
#391=CARTESIAN_POINT('Origin',(10.,2.,0.));
#392=CARTESIAN_POINT('Origin',(0.,2.,0.));
#393=CARTESIAN_POINT('',(0.,0.,0.));
#394=CARTESIAN_POINT('Origin',(-24.2877350634451,-0.556806536825274,0.));
#395=CARTESIAN_POINT('',(-24.7492531222912,10.9431934631725,0.));
#396=CARTESIAN_POINT('Origin',(-24.7492531222912,-0.556806536825274,0.));
#397=CARTESIAN_POINT('',(-29.1455689850615,8.04513879598069,0.));
#398=CARTESIAN_POINT('Origin',(-29.1455689850615,-0.556806536825275,0.));
#399=CARTESIAN_POINT('Origin',(16.7828781721469,-0.556806536825269,0.));
#400=CARTESIAN_POINT('',(58.315009466585,10.9431934631725,0.));
#401=CARTESIAN_POINT('Origin',(58.315009466585,-0.556806536825264,0.));
#402=CARTESIAN_POINT('Origin',(58.210321407397,-0.556806536825264,0.));
#403=CARTESIAN_POINT('',(63.0583216805501,8.04513879596739,0.));
#404=CARTESIAN_POINT('Origin',(63.0583216805501,-0.556806536825263,0.));
#405=CARTESIAN_POINT('Origin',(63.2573490141472,-0.556806536825263,0.));
#406=CARTESIAN_POINT('',(63.4563763477444,8.44319346316132,0.));
#407=CARTESIAN_POINT('Origin',(63.4563763477444,-0.556806536825263,0.));
#408=CARTESIAN_POINT('Origin',(63.9563763477444,-0.556806536825263,0.));
#409=CARTESIAN_POINT('',(64.4563763477444,8.44319346316132,0.));
#410=CARTESIAN_POINT('Origin',(64.4563763477444,-0.556806536825263,0.));
#411=CARTESIAN_POINT('Origin',(64.4563763477442,3.94319346316803,0.));
#412=CARTESIAN_POINT('Origin',(-30.5436236522556,3.94319346317474,0.));
#413=CARTESIAN_POINT('',(-30.5436236522556,8.44319346317475,0.));
#414=CARTESIAN_POINT('Origin',(-30.5436236522556,-0.556806536825275,0.));
#415=CARTESIAN_POINT('Origin',(-30.0436236522556,-0.556806536825275,0.));
#416=CARTESIAN_POINT('',(-29.5436236522556,8.44319346317475,0.));
#417=CARTESIAN_POINT('Origin',(-29.5436236522556,-0.556806536825275,0.));
#418=CARTESIAN_POINT('Origin',(-29.3445963186586,-0.556806536825275,0.));
#419=CARTESIAN_POINT('',(0.,0.,0.));
#420=CARTESIAN_POINT('Origin',(9.6,1.84683544945373E-15,0.));
#421=CARTESIAN_POINT('',(9.2,4.,4.89858719658941E-16));
#422=CARTESIAN_POINT('Origin',(9.2,1.76988397239316E-15,0.));
#423=CARTESIAN_POINT('',(10.,3.2,-3.91886975727153E-16));
#424=CARTESIAN_POINT('Origin',(10.,1.9237869265143E-15,0.));
#425=CARTESIAN_POINT('Origin',(5.,9.61893463257152E-16,0.));
#426=CARTESIAN_POINT('',(0.,4.,0.));
#427=CARTESIAN_POINT('Origin',(1.11022302462516E-15,2.46519032881566E-31,
0.));
#428=CARTESIAN_POINT('Origin',(10.,2.,0.));
#429=CARTESIAN_POINT('Origin',(0.,2.,0.));
#430=CARTESIAN_POINT('',(0.,0.,0.));
#431=CARTESIAN_POINT('',(0.,0.,0.));
#432=CARTESIAN_POINT('',(13.5000000000001,1.94685773111625E-15,0.));
#433=CARTESIAN_POINT('',(94.0436236522558,0.55680653682528,0.));
#434=CARTESIAN_POINT('',(158.5,1.73472347597681E-14,0.));
#435=UNCERTAINTY_MEASURE_WITH_UNIT(LENGTH_MEASURE(0.01),#447,
'DISTANCE_ACCURACY_VALUE',
'Maximum model space distance between geometric entities at asserted c
onnectivities');
#436=UNCERTAINTY_MEASURE_WITH_UNIT(LENGTH_MEASURE(0.01),#447,
'DISTANCE_ACCURACY_VALUE',
'Maximum model space distance between geometric entities at asserted c
onnectivities');
#437=UNCERTAINTY_MEASURE_WITH_UNIT(LENGTH_MEASURE(0.01),#447,
'DISTANCE_ACCURACY_VALUE',
'Maximum model space distance between geometric entities at asserted c
onnectivities');
#438=UNCERTAINTY_MEASURE_WITH_UNIT(LENGTH_MEASURE(0.01),#447,
'DISTANCE_ACCURACY_VALUE',
'Maximum model space distance between geometric entities at asserted c
onnectivities');
#439=UNCERTAINTY_MEASURE_WITH_UNIT(LENGTH_MEASURE(0.01),#447,
'DISTANCE_ACCURACY_VALUE',
'Maximum model space distance between geometric entities at asserted c
onnectivities');
#440=UNCERTAINTY_MEASURE_WITH_UNIT(LENGTH_MEASURE(1.E-6),#447,
'DISTANCE_ACCURACY_VALUE',
'Maximum model space distance between geometric entities at asserted c
onnectivities');
#441=(
GEOMETRIC_REPRESENTATION_CONTEXT(3)
GLOBAL_UNCERTAINTY_ASSIGNED_CONTEXT((#435))
GLOBAL_UNIT_ASSIGNED_CONTEXT((#447,#450,#448))
REPRESENTATION_CONTEXT('','3D')
);
#442=(
GEOMETRIC_REPRESENTATION_CONTEXT(3)
GLOBAL_UNCERTAINTY_ASSIGNED_CONTEXT((#436))
GLOBAL_UNIT_ASSIGNED_CONTEXT((#447,#450,#448))
REPRESENTATION_CONTEXT('','3D')
);
#443=(
GEOMETRIC_REPRESENTATION_CONTEXT(3)
GLOBAL_UNCERTAINTY_ASSIGNED_CONTEXT((#437))
GLOBAL_UNIT_ASSIGNED_CONTEXT((#447,#450,#448))
REPRESENTATION_CONTEXT('','3D')
);
#444=(
GEOMETRIC_REPRESENTATION_CONTEXT(3)
GLOBAL_UNCERTAINTY_ASSIGNED_CONTEXT((#438))
GLOBAL_UNIT_ASSIGNED_CONTEXT((#447,#450,#448))
REPRESENTATION_CONTEXT('','3D')
);
#445=(
GEOMETRIC_REPRESENTATION_CONTEXT(3)
GLOBAL_UNCERTAINTY_ASSIGNED_CONTEXT((#439))
GLOBAL_UNIT_ASSIGNED_CONTEXT((#447,#450,#448))
REPRESENTATION_CONTEXT('','3D')
);
#446=(
GEOMETRIC_REPRESENTATION_CONTEXT(3)
GLOBAL_UNCERTAINTY_ASSIGNED_CONTEXT((#440))
GLOBAL_UNIT_ASSIGNED_CONTEXT((#447,#450,#448))
REPRESENTATION_CONTEXT('','3D')
);
#447=(
LENGTH_UNIT()
NAMED_UNIT(*)
SI_UNIT(.MILLI.,.METRE.)
);
#448=(
NAMED_UNIT(*)
SI_UNIT($,.STERADIAN.)
SOLID_ANGLE_UNIT()
);
#449=DIMENSIONAL_EXPONENTS(0.,0.,0.,0.,0.,0.,0.);
#450=(
CONVERSION_BASED_UNIT('degree',#452)
NAMED_UNIT(#449)
PLANE_ANGLE_UNIT()
);
#451=(
NAMED_UNIT(*)
PLANE_ANGLE_UNIT()
SI_UNIT($,.RADIAN.)
);
#452=PLANE_ANGLE_MEASURE_WITH_UNIT(PLANE_ANGLE_MEASURE(0.01745329252),#451);
#453=SHAPE_DEFINITION_REPRESENTATION(#458,#467);
#454=SHAPE_DEFINITION_REPRESENTATION(#459,#468);
#455=SHAPE_DEFINITION_REPRESENTATION(#460,#469);
#456=SHAPE_DEFINITION_REPRESENTATION(#461,#470);
#457=SHAPE_DEFINITION_REPRESENTATION(#462,#471);
#458=PRODUCT_DEFINITION_SHAPE('',$,#473);
#459=PRODUCT_DEFINITION_SHAPE('',$,#474);
#460=PRODUCT_DEFINITION_SHAPE('',$,#475);
#461=PRODUCT_DEFINITION_SHAPE('',$,#476);
#462=PRODUCT_DEFINITION_SHAPE('',$,#477);
#463=PRODUCT_DEFINITION_SHAPE($,$,#23);
#464=PRODUCT_DEFINITION_SHAPE($,$,#24);
#465=PRODUCT_DEFINITION_SHAPE($,$,#25);
#466=PRODUCT_DEFINITION_SHAPE($,$,#26);
#467=SHAPE_REPRESENTATION('',(#239),#441);
#468=SHAPE_REPRESENTATION('',(#245),#442);
#469=SHAPE_REPRESENTATION('',(#253),#443);
#470=SHAPE_REPRESENTATION('',(#271),#444);
#471=SHAPE_REPRESENTATION('',(#279,#280,#281,#282,#283),#445);
#472=PRODUCT_DEFINITION_CONTEXT('part definition',#489,'design');
#473=PRODUCT_DEFINITION('ENG-001076','ENG-001076',#478,#472);
#474=PRODUCT_DEFINITION('Gew-04','Gew-04',#479,#472);
#475=PRODUCT_DEFINITION('ENG-001529','ENG-001529',#480,#472);
#476=PRODUCT_DEFINITION('GEW_-S-000006','GEW_-S-000006',#481,#472);
#477=PRODUCT_DEFINITION('Baugruppe1','Baugruppe1',#482,#472);
#478=PRODUCT_DEFINITION_FORMATION('',$,#491);
#479=PRODUCT_DEFINITION_FORMATION('',$,#492);
#480=PRODUCT_DEFINITION_FORMATION('',$,#493);
#481=PRODUCT_DEFINITION_FORMATION('',$,#494);
#482=PRODUCT_DEFINITION_FORMATION('',$,#495);
#483=PRODUCT_RELATED_PRODUCT_CATEGORY('ENG-001076','ENG-001076',(#491));
#484=PRODUCT_RELATED_PRODUCT_CATEGORY('Gew-04','Gew-04',(#492));
#485=PRODUCT_RELATED_PRODUCT_CATEGORY('ENG-001529','ENG-001529',(#493));
#486=PRODUCT_RELATED_PRODUCT_CATEGORY('GEW_-S-000006','GEW_-S-000006',(#494));
#487=PRODUCT_RELATED_PRODUCT_CATEGORY('Baugruppe1','Baugruppe1',(#495));
#488=APPLICATION_PROTOCOL_DEFINITION('international standard',
'automotive_design',2009,#489);
#489=APPLICATION_CONTEXT(
'Core Data for Automotive Mechanical Design Process');
#490=PRODUCT_CONTEXT('part definition',#489,'mechanical');
#491=PRODUCT('ENG-001076','ENG-001076',$,(#490));
#492=PRODUCT('Gew-04','Gew-04',$,(#490));
#493=PRODUCT('ENG-001529','ENG-001529',$,(#490));
#494=PRODUCT('GEW_-S-000006','GEW_-S-000006',$,(#490));
#495=PRODUCT('Baugruppe1','Baugruppe1',$,(#490));
#496=PRESENTATION_STYLE_ASSIGNMENT((#498));
#497=PRESENTATION_STYLE_ASSIGNMENT((#499));
#498=SURFACE_STYLE_USAGE(.BOTH.,#500);
#499=SURFACE_STYLE_USAGE(.BOTH.,#501);
#500=SURFACE_SIDE_STYLE('',(#502));
#501=SURFACE_SIDE_STYLE('',(#503));
#502=SURFACE_STYLE_FILL_AREA(#504);
#503=SURFACE_STYLE_FILL_AREA(#505);
#504=FILL_AREA_STYLE('',(#506));
#505=FILL_AREA_STYLE('',(#507));
#506=FILL_AREA_STYLE_COLOUR('',#508);
#507=FILL_AREA_STYLE_COLOUR('',#509);
#508=COLOUR_RGB('',0.0823529411764706,0.0823529411764706,0.0823529411764706);
#509=COLOUR_RGB('',0.63921568627451,0.63921568627451,0.686274509803922);
ENDSEC;
END-ISO-10303-21;
